Ноты - Буду ждать тебя Шербурские зонтики (Les Parapluies de Cherbourg) - Michel Legrand (Мишель Легран)

Опубликовано чт, 12/09/2013 - 09:09 пользователем musicnota.org
Прослушать мелодию в midi: 

Если Вы не видите плеера, скачайте и установите программу по ссылке. Процесс установки Вы не увидите, он займет 2мин

скачать

Ноты песни (Les Parapluies de Cherbourg) - Michel Legrand (Мишель Легран) скачать бесплатно

«Шербурские зонтики» (фр. Les Parapluies de Cherbourg) — музыкальная мелодрама Жака Деми c музыкой Мишеля Леграна и Катрин Денёв.

Табулатура Буду ждать тебя (Шербурские зонтики)


E||--3--3--1--1--3--3--1--1--|--5----3----1---------|--1--1--0--0--1--1--0--0--|
B||--1--1--1--1--1--1--1--1--|--3----3----0---------|--0--0--0--0--0--0--0--0--|
G||--2--2--2--2--2--2--2--2--|--4----4----0---------|--0--0--0--0--0--0--0--0--|
D||--0-----------------0-----|-----------------0----|--------------------------|
A||--------------------------|----------------------|--3-----------------3-----|
E||--------------------------|--3-------------------|--------------------------|

--3----1----0---------|--0--0--------0--0--------|--1----0---------------|
--1----1----1---------|-----0--3--3--0--0--3--3--|--0----0----3-------3--|
--2----2----2---------|--2--2--2--2--2--2--2--2--|--1----1----1-------1--|
----------------------|--3-----3--3--------3--3--|-----------------------|
-----------------3----|--3-----------------2-----|-----------------------|
--1-------------------|--------------------------|--0--------------0-----|

----------------------|-----------------------|----------------------|
--1-------------------|-------0--1--3---------|--0-------------------|
--0-------------------|--2---------------2----|--2-------------------|
--2-------------------|--1--------------------|--0-------------------|
--0----0----0----0----|-----------------------|----------------------|
----------------------|--0---------------2----|--0----0----0----0----|

-----------------0----|----------------------|------------4----5----|
------------4---------|--3---------1---------|--0-------------------|
--1---------1---------|--4---------2---------|-------2--------------|
----------------------|--2---------2---------|--2-------------------|
----------------------|-------0---------0----|--3---------3----4----|
--0----0----0---------|----------------------|----------------------|

--3---------1---------|--1-------------------|----------------------|
-------3---------3----|-------3----2----3----|--1---------0---------|
-------2---------2----|-------2--------------|-------0---------0----|
--0-------------------|--0-------------------|-------0---------0----|
----------------------|----------------------|----------------------|
----------------------|----------------------|--3-------------------|

------------2----3----|--1---------0---------|--0--------------0----|
----------------------|-------0---------0----|------------4---------|
--2----0--------------|-------0---------0----|-------2----1---------|
----------------------|----------------------|-------3--------------|
----------------------|--3-------------------|--2-------------------|
----------------------|----------------------|------------0---------|

----------------------|------------4----5----|--3---------1---------|
--3---------1---------|--0-------------------|-------3---------3----|
--4---------2---------|-------2--------------|-------2---------2----|
--2---------2---------|--2---------3----4----|--0-------------------|
-------0---------0----|--3-------------------|----------------------|
----------------------|----------------------|----------------------|

--1---------0---------|--0----5--------------|-------0--------------|-------||
-------3---------3----|-----------------5----|--0-------------------|-------||
-------2--------------|-----------------5----|-----------------7----|-------||
--0-------------------|------------7---------|-----------------6----|--7----||
----------------------|----------------------|------------7---------|--0----||
----------------------|--0-------------------|--0-------------------|-------||

соло, кларнет, скрипка, гитара, флейта, блок флейта, саксофон, пианино, фортепиано, midi



Комментировать ноты

2 + 8 =
Решите эту простую математическую задачу и введите результат. Например, для 1+3, введите 4.