Ноты - Полковнику никто не пишет - Би-2

Опубликовано сб, 16/11/2013 - 17:09 пользователем pavelnik2
Прослушать мелодию в midi: 

Если Вы не видите плеера, скачайте и установите программу по ссылке. Процесс установки Вы не увидите, он займет 2мин

скачать

Ноты песни Полковнику никто не пишет - Би-2 скачать бесплатно

Аккорды и слова песни Полковнику никто не пишет скачать бесплатно


Боль-ши-е го-ро-да Пус-тые по-ез-да
1|-------------------------------------------------------------|
2|-------------------------------------------------------------|
3|------------------------------------------------8------------|
4|------------------5-----------------------------8------------|
5|-----6--5--3------5-----------------------------6------------|
6|--------------6---3------------------------------------------|
Ни бе-ре-га ни дна Все на-чи-нать сна-ча-ла
1|-------------------------------------------------------------|
2|-------------------------------------------------------------|
3|-----------------5------------------------------7------------|
4|-----------------5------------------------------7------------|
5|-----------------3------------------------------5------------|
6|-------------------------------------------------------------|

Второй куплет аналогично первому, но без вступления.

Холодная война. И время, как вода
Он не сошел с ума. Ты ничего не знала.

Припев: Пол-ков-ни-ку ни-кто не пи-шет
1|-------------------------------------------------------------|
2|-------------------------------------------------------------|
3|----------5--3-----------------------------------------------|
4|------5---------5--------------------------------8-8----8-8--|
5|--5-----------------5-----5--6--5------5--8--6---6-6----6-6--|
6|-------------------------------------------------------------|
Пол-ков-ни-ка ни-кто не ждет
1|----------------------------------------6-6--5-5--6-6--5-5---|
2|-------------------------------------------------------------|
3|-----------5--3----------------------------------------------|
4|-------5---------5-------------------------------------------|
5|---5-----------------5-----5--6--5---------------------------|
6|-------------------------------------------------------------|

Третий куплет играется глушенным "арпеджио"

На линии огня Пустые города
1|-------------------------------------------------------------|
2|-------------------------------------------------------------|
3|--------------6-7-6---6-7-6---6-7-6---6-7-6---6-7-6---6-7-6--|
4|------------5-------5-------5-------5-------5-------5--------|
5|-------------------------------------------------------------|
6|-------------------------------------------------------------|
В которых никогда Ты раньше не бывал-а
1|-------------------------------------------------------------|
2|--------------------------11---------------------------------|
3|---6-7-6---6-7-6---8-10-8------------8-10-8--------------7---|
4|-5-------5-------8-------------8-8-8-------------------7-----|
5|-----------------------------------------------------5-------|
6|-------------------------------------------------------------|

Четвертый куплет

И рвутся поезда На тонкие слова Он не сош-
1|-------------------------------------------------------------|
2|-------------------8------------8------------8------------8--|
3|---------------6-7----7-6---6-7----7-6---6-7----7-6---6-7----|
4|-------------5-------------------------5---------------------|
5|-------------------------------------------------------------|
6|-------------------------------------------------------------|
-ел с ума Ты ничего не знала
1|-------------------------------------------------------------|
2|---------------11---------------11---------------------------|
3|--7-6---8-10-8-----------8-10-8------------------------------|
4|------8------------8-8-8-------------7-7---7-7---7-7---7-----|
5|-------------------------------------5-5---5-5---5-5---5-----|
6|-------------------------------------------------------------|

Припев.

Соло1 сразу после припева
1|-----6------5~~~11~13~15------6-----5~~~10~11~10-------------|
2|-4-6----4-6-----11~13~15--4-6---4-6-----10~11~10-------------|
3|-------------------------------------------------------------|
~ это скольжение
1|-----6------5~~~11~13~15~17[держать до следующей части]------|
2|-4-6----4-6-----11~13~15~17[держать до следующей части]------|
3|-------------------------------------------------------------|

Соло2 после долгой ноты соло1
1|-6-------5-----------------6--------6--------5---------------|
2|-----------------6-------6-----------------------------------|
3|---7-7-----7-7-7---8---8--------------7-8------8-8--8--7~19--|

соло, кларнет, саксофон, флейта, блок флейта, скрипка, пианино, фортепиано, гитара, гобой,труба, midi



Комментировать ноты

CAPTCHA на основе изображений
Введите код с картинки